ISO-10303-21;
HEADER;
/* Generated by software containing ST-Developer
 * from STEP Tools, Inc. (www.steptools.com) 
 */

FILE_DESCRIPTION(
/* description */ (''),
/* implementation_level */ '2;1');

FILE_NAME(
/* name */ 
'I:\\_Neu\\01_Kabelschutz\\Ostendorf\\250x7,7\\Kabelschutzbogenrohr_25
0_R5000_15\X\B0_35707_734410.stp',
/* time_stamp */ '2023-08-16T13:50:27+02:00',
/* author */ ('kfastenau'),
/* organization */ (''),
/* preprocessor_version */ 'ST-DEVELOPER v18.1',
/* originating_system */ 'Autodesk Inventor 2021',
/* authorisation */ '');

FILE_SCHEMA (('CONFIG_CONTROL_DESIGN'));
ENDSEC;

DATA;
#10=MECHANICAL_DESIGN_GEOMETRIC_PRESENTATION_REPRESENTATION('',(#13),#273);
#11=SHAPE_REPRESENTATION_RELATIONSHIP('SRR','None',#280,#12);
#12=ADVANCED_BREP_SHAPE_REPRESENTATION('',(#14),#272);
#13=STYLED_ITEM('',(#289),#14);
#14=MANIFOLD_SOLID_BREP('Volumenk\X\F6rper1',#139);
#15=FACE_BOUND('',#36,.T.);
#16=FACE_BOUND('',#38,.T.);
#17=PLANE('',#179);
#18=PLANE('',#180);
#19=TOROIDAL_SURFACE('',#162,5000.,117.3);
#20=TOROIDAL_SURFACE('',#172,5000.,125.);
#21=FACE_OUTER_BOUND('',#29,.T.);
#22=FACE_OUTER_BOUND('',#30,.T.);
#23=FACE_OUTER_BOUND('',#31,.T.);
#24=FACE_OUTER_BOUND('',#32,.T.);
#25=FACE_OUTER_BOUND('',#33,.T.);
#26=FACE_OUTER_BOUND('',#34,.T.);
#27=FACE_OUTER_BOUND('',#35,.T.);
#28=FACE_OUTER_BOUND('',#37,.T.);
#29=EDGE_LOOP('',(#91,#92,#93,#94));
#30=EDGE_LOOP('',(#95,#96,#97,#98));
#31=EDGE_LOOP('',(#99,#100,#101,#102));
#32=EDGE_LOOP('',(#103,#104,#105,#106,#107,#108));
#33=EDGE_LOOP('',(#109,#110,#111,#112,#113,#114));
#34=EDGE_LOOP('',(#115,#116,#117,#118,#119,#120));
#35=EDGE_LOOP('',(#121,#122));
#36=EDGE_LOOP('',(#123));
#37=EDGE_LOOP('',(#124,#125));
#38=EDGE_LOOP('',(#126));
#39=LINE('',#236,#43);
#40=LINE('',#245,#44);
#41=LINE('',#252,#45);
#42=LINE('',#264,#46);
#43=VECTOR('',#187,117.3);
#44=VECTOR('',#200,117.3);
#45=VECTOR('',#207,125.);
#46=VECTOR('',#222,125.);
#47=CIRCLE('',#160,117.3);
#48=CIRCLE('',#161,117.3);
#49=CIRCLE('',#163,117.3);
#50=CIRCLE('',#164,4882.7);
#51=CIRCLE('',#166,117.3);
#52=CIRCLE('',#168,125.);
#53=CIRCLE('',#169,125.);
#54=CIRCLE('',#170,125.);
#55=CIRCLE('',#171,125.);
#56=CIRCLE('',#173,4875.);
#57=CIRCLE('',#174,125.);
#58=CIRCLE('',#175,125.);
#59=CIRCLE('',#177,125.);
#60=CIRCLE('',#178,125.);
#61=VERTEX_POINT('',#233);
#62=VERTEX_POINT('',#235);
#63=VERTEX_POINT('',#239);
#64=VERTEX_POINT('',#243);
#65=VERTEX_POINT('',#247);
#66=VERTEX_POINT('',#248);
#67=VERTEX_POINT('',#251);
#68=VERTEX_POINT('',#253);
#69=VERTEX_POINT('',#257);
#70=VERTEX_POINT('',#259);
#71=VERTEX_POINT('',#263);
#72=VERTEX_POINT('',#265);
#73=EDGE_CURVE('',#61,#61,#47,.T.);
#74=EDGE_CURVE('',#61,#62,#39,.T.);
#75=EDGE_CURVE('',#62,#62,#48,.T.);
#76=EDGE_CURVE('',#63,#63,#49,.T.);
#77=EDGE_CURVE('',#63,#61,#50,.T.);
#78=EDGE_CURVE('',#64,#64,#51,.T.);
#79=EDGE_CURVE('',#64,#63,#40,.T.);
#80=EDGE_CURVE('',#65,#66,#52,.T.);
#81=EDGE_CURVE('',#66,#65,#53,.T.);
#82=EDGE_CURVE('',#66,#67,#41,.T.);
#83=EDGE_CURVE('',#67,#68,#54,.T.);
#84=EDGE_CURVE('',#68,#67,#55,.T.);
#85=EDGE_CURVE('',#68,#69,#56,.T.);
#86=EDGE_CURVE('',#69,#70,#57,.T.);
#87=EDGE_CURVE('',#70,#69,#58,.T.);
#88=EDGE_CURVE('',#70,#71,#42,.T.);
#89=EDGE_CURVE('',#72,#71,#59,.T.);
#90=EDGE_CURVE('',#71,#72,#60,.T.);
#91=ORIENTED_EDGE('',*,*,#73,.F.);
#92=ORIENTED_EDGE('',*,*,#74,.T.);
#93=ORIENTED_EDGE('',*,*,#75,.F.);
#94=ORIENTED_EDGE('',*,*,#74,.F.);
#95=ORIENTED_EDGE('',*,*,#76,.F.);
#96=ORIENTED_EDGE('',*,*,#77,.T.);
#97=ORIENTED_EDGE('',*,*,#73,.T.);
#98=ORIENTED_EDGE('',*,*,#77,.F.);
#99=ORIENTED_EDGE('',*,*,#78,.F.);
#100=ORIENTED_EDGE('',*,*,#79,.T.);
#101=ORIENTED_EDGE('',*,*,#76,.T.);
#102=ORIENTED_EDGE('',*,*,#79,.F.);
#103=ORIENTED_EDGE('',*,*,#80,.F.);
#104=ORIENTED_EDGE('',*,*,#81,.F.);
#105=ORIENTED_EDGE('',*,*,#82,.T.);
#106=ORIENTED_EDGE('',*,*,#83,.T.);
#107=ORIENTED_EDGE('',*,*,#84,.T.);
#108=ORIENTED_EDGE('',*,*,#82,.F.);
#109=ORIENTED_EDGE('',*,*,#84,.F.);
#110=ORIENTED_EDGE('',*,*,#85,.T.);
#111=ORIENTED_EDGE('',*,*,#86,.T.);
#112=ORIENTED_EDGE('',*,*,#87,.T.);
#113=ORIENTED_EDGE('',*,*,#85,.F.);
#114=ORIENTED_EDGE('',*,*,#83,.F.);
#115=ORIENTED_EDGE('',*,*,#86,.F.);
#116=ORIENTED_EDGE('',*,*,#87,.F.);
#117=ORIENTED_EDGE('',*,*,#88,.T.);
#118=ORIENTED_EDGE('',*,*,#89,.F.);
#119=ORIENTED_EDGE('',*,*,#90,.F.);
#120=ORIENTED_EDGE('',*,*,#88,.F.);
#121=ORIENTED_EDGE('',*,*,#89,.T.);
#122=ORIENTED_EDGE('',*,*,#90,.T.);
#123=ORIENTED_EDGE('',*,*,#78,.T.);
#124=ORIENTED_EDGE('',*,*,#80,.T.);
#125=ORIENTED_EDGE('',*,*,#81,.T.);
#126=ORIENTED_EDGE('',*,*,#75,.T.);
#127=CYLINDRICAL_SURFACE('',#159,117.3);
#128=CYLINDRICAL_SURFACE('',#165,117.3);
#129=CYLINDRICAL_SURFACE('',#167,125.);
#130=CYLINDRICAL_SURFACE('',#176,125.);
#131=ADVANCED_FACE('',(#21),#127,.F.);
#132=ADVANCED_FACE('',(#22),#19,.F.);
#133=ADVANCED_FACE('',(#23),#128,.F.);
#134=ADVANCED_FACE('',(#24),#129,.T.);
#135=ADVANCED_FACE('',(#25),#20,.T.);
#136=ADVANCED_FACE('',(#26),#130,.T.);
#137=ADVANCED_FACE('',(#27,#15),#17,.T.);
#138=ADVANCED_FACE('',(#28,#16),#18,.F.);
#139=CLOSED_SHELL('',(#131,#132,#133,#134,#135,#136,#137,#138));
#140=DERIVED_UNIT_ELEMENT(#142,1.);
#141=DERIVED_UNIT_ELEMENT(#275,3.);
#142=(
MASS_UNIT()
NAMED_UNIT(*)
SI_UNIT($,.GRAM.)
);
#143=DERIVED_UNIT((#140,#141));
#144=MEASURE_REPRESENTATION_ITEM('density measure',
POSITIVE_RATIO_MEASURE(1.),#143);
#145=PROPERTY_DEFINITION_REPRESENTATION(#150,#147);
#146=PROPERTY_DEFINITION_REPRESENTATION(#151,#148);
#147=REPRESENTATION('material name',(#149),#272);
#148=REPRESENTATION('density',(#144),#272);
#149=DESCRIPTIVE_REPRESENTATION_ITEM('Generisch','Generisch');
#150=PROPERTY_DEFINITION('material property','material name',#282);
#151=PROPERTY_DEFINITION('material property','density of part',#282);
#152=DATE_TIME_ROLE('creation_date');
#153=CC_DESIGN_DATE_AND_TIME_ASSIGNMENT(#154,#152,(#282));
#154=DATE_AND_TIME(#155,#156);
#155=CALENDAR_DATE(2022,16,2);
#156=LOCAL_TIME(0,0,0.,#157);
#157=COORDINATED_UNIVERSAL_TIME_OFFSET(0,0,.BEHIND.);
#158=AXIS2_PLACEMENT_3D('placement',#231,#181,#182);
#159=AXIS2_PLACEMENT_3D('',#232,#183,#184);
#160=AXIS2_PLACEMENT_3D('',#234,#185,#186);
#161=AXIS2_PLACEMENT_3D('',#237,#188,#189);
#162=AXIS2_PLACEMENT_3D('',#238,#190,#191);
#163=AXIS2_PLACEMENT_3D('',#240,#192,#193);
#164=AXIS2_PLACEMENT_3D('',#241,#194,#195);
#165=AXIS2_PLACEMENT_3D('',#242,#196,#197);
#166=AXIS2_PLACEMENT_3D('',#244,#198,#199);
#167=AXIS2_PLACEMENT_3D('',#246,#201,#202);
#168=AXIS2_PLACEMENT_3D('',#249,#203,#204);
#169=AXIS2_PLACEMENT_3D('',#250,#205,#206);
#170=AXIS2_PLACEMENT_3D('',#254,#208,#209);
#171=AXIS2_PLACEMENT_3D('',#255,#210,#211);
#172=AXIS2_PLACEMENT_3D('',#256,#212,#213);
#173=AXIS2_PLACEMENT_3D('',#258,#214,#215);
#174=AXIS2_PLACEMENT_3D('',#260,#216,#217);
#175=AXIS2_PLACEMENT_3D('',#261,#218,#219);
#176=AXIS2_PLACEMENT_3D('',#262,#220,#221);
#177=AXIS2_PLACEMENT_3D('',#266,#223,#224);
#178=AXIS2_PLACEMENT_3D('',#267,#225,#226);
#179=AXIS2_PLACEMENT_3D('',#268,#227,#228);
#180=AXIS2_PLACEMENT_3D('',#269,#229,#230);
#181=DIRECTION('axis',(0.,0.,1.));
#182=DIRECTION('refdir',(1.,0.,0.));
#183=DIRECTION('center_axis',(0.99144486137381,-0.130526192220052,0.));
#184=DIRECTION('ref_axis',(0.130526192220052,0.99144486137381,0.));
#185=DIRECTION('center_axis',(0.99144486137381,-0.130526192220053,0.));
#186=DIRECTION('ref_axis',(0.130526192220053,0.99144486137381,0.));
#187=DIRECTION('',(0.99144486137381,-0.130526192220052,0.));
#188=DIRECTION('center_axis',(-0.99144486137381,0.130526192220053,0.));
#189=DIRECTION('ref_axis',(0.130526192220052,0.99144486137381,0.));
#190=DIRECTION('center_axis',(0.,0.,-1.));
#191=DIRECTION('ref_axis',(-1.,0.,0.));
#192=DIRECTION('center_axis',(0.991444861373811,0.130526192220051,0.));
#193=DIRECTION('ref_axis',(-0.130526192220051,0.991444861373811,0.));
#194=DIRECTION('center_axis',(0.,0.,-1.));
#195=DIRECTION('ref_axis',(-1.,0.,0.));
#196=DIRECTION('center_axis',(0.991444861373811,0.130526192220051,0.));
#197=DIRECTION('ref_axis',(-0.130526192220051,0.991444861373811,0.));
#198=DIRECTION('center_axis',(0.991444861373811,0.130526192220051,0.));
#199=DIRECTION('ref_axis',(-0.130526192220051,0.991444861373811,0.));
#200=DIRECTION('',(0.991444861373811,0.130526192220051,0.));
#201=DIRECTION('center_axis',(0.99144486137381,-0.130526192220052,0.));
#202=DIRECTION('ref_axis',(-0.130526192220053,-0.99144486137381,0.));
#203=DIRECTION('center_axis',(0.99144486137381,-0.130526192220053,0.));
#204=DIRECTION('ref_axis',(-0.130526192220053,-0.99144486137381,0.));
#205=DIRECTION('center_axis',(0.99144486137381,-0.130526192220053,0.));
#206=DIRECTION('ref_axis',(-0.130526192220053,-0.99144486137381,0.));
#207=DIRECTION('',(-0.99144486137381,0.130526192220053,0.));
#208=DIRECTION('center_axis',(0.99144486137381,-0.130526192220053,0.));
#209=DIRECTION('ref_axis',(-0.130526192220053,-0.99144486137381,0.));
#210=DIRECTION('center_axis',(0.99144486137381,-0.130526192220053,0.));
#211=DIRECTION('ref_axis',(-0.130526192220053,-0.99144486137381,0.));
#212=DIRECTION('center_axis',(0.,0.,-1.));
#213=DIRECTION('ref_axis',(-1.,0.,0.));
#214=DIRECTION('center_axis',(0.,0.,1.));
#215=DIRECTION('ref_axis',(-1.,0.,0.));
#216=DIRECTION('center_axis',(0.991444861373811,0.130526192220051,0.));
#217=DIRECTION('ref_axis',(0.130526192220051,-0.991444861373811,0.));
#218=DIRECTION('center_axis',(0.991444861373811,0.130526192220051,0.));
#219=DIRECTION('ref_axis',(0.130526192220051,-0.991444861373811,0.));
#220=DIRECTION('center_axis',(0.991444861373811,0.130526192220051,0.));
#221=DIRECTION('ref_axis',(0.130526192220051,-0.991444861373811,0.));
#222=DIRECTION('',(-0.991444861373811,-0.130526192220051,0.));
#223=DIRECTION('center_axis',(-0.991444861373811,-0.130526192220051,0.));
#224=DIRECTION('ref_axis',(0.130526192220051,-0.991444861373811,0.));
#225=DIRECTION('center_axis',(-0.991444861373811,-0.130526192220051,0.));
#226=DIRECTION('ref_axis',(0.130526192220051,-0.991444861373811,0.));
#227=DIRECTION('center_axis',(-0.991444861373811,-0.130526192220051,0.));
#228=DIRECTION('ref_axis',(0.,0.,1.));
#229=DIRECTION('center_axis',(-0.99144486137381,0.130526192220053,0.));
#230=DIRECTION('ref_axis',(0.,0.,1.));
#231=CARTESIAN_POINT('',(0.,0.,0.));
#232=CARTESIAN_POINT('Origin',(652.630961100258,4957.22430686905,0.));
#233=CARTESIAN_POINT('',(637.320238752846,4840.9278246299,1.43651069539985E-14));
#234=CARTESIAN_POINT('Origin',(652.630961100258,4957.22430686905,0.));
#235=CARTESIAN_POINT('',(1232.18715557713,4762.61210929787,1.43651069539985E-14));
#236=CARTESIAN_POINT('',(637.320238752846,4840.92782462991,-1.43651069539985E-14));
#237=CARTESIAN_POINT('Origin',(1247.49787792454,4878.90859153702,0.));
#238=CARTESIAN_POINT('Origin',(-2.8421709430404E-13,-3.5527136788005E-14,
0.));
#239=CARTESIAN_POINT('',(-637.320238752847,4840.9278246299,1.43651069539985E-14));
#240=CARTESIAN_POINT('Origin',(-652.630961100259,4957.22430686905,0.));
#241=CARTESIAN_POINT('Origin',(-2.8421709430404E-13,-3.5527136788005E-14,
1.43651069539985E-14));
#242=CARTESIAN_POINT('Origin',(-1247.49787792454,4878.90859153702,0.));
#243=CARTESIAN_POINT('',(-1232.18715557713,4762.61210929787,1.43651069539985E-14));
#244=CARTESIAN_POINT('Origin',(-1247.49787792454,4878.90859153702,0.));
#245=CARTESIAN_POINT('',(-1232.18715557713,4762.61210929787,-1.43651069539985E-14));
#246=CARTESIAN_POINT('Origin',(652.630961100258,4957.22430686905,0.));
#247=CARTESIAN_POINT('',(1231.18210389704,4754.97798386529,0.));
#248=CARTESIAN_POINT('',(1263.81365195205,5002.83919920875,1.53080849893419E-14));
#249=CARTESIAN_POINT('Origin',(1247.49787792454,4878.90859153702,0.));
#250=CARTESIAN_POINT('Origin',(1247.49787792454,4878.90859153702,0.));
#251=CARTESIAN_POINT('',(668.946735127764,5081.15491454078,1.53080849893419E-14));
#252=CARTESIAN_POINT('',(668.946735127764,5081.15491454078,1.53080849893419E-14));
#253=CARTESIAN_POINT('',(636.315187072752,4833.29369919733,0.));
#254=CARTESIAN_POINT('Origin',(652.630961100258,4957.22430686905,0.));
#255=CARTESIAN_POINT('Origin',(652.630961100258,4957.22430686905,0.));
#256=CARTESIAN_POINT('Origin',(-2.8421709430404E-13,-3.5527136788005E-14,
0.));
#257=CARTESIAN_POINT('',(-636.315187072752,4833.29369919733,0.));
#258=CARTESIAN_POINT('Origin',(-2.8421709430404E-13,-3.5527136788005E-14,
1.53080849893419E-14));
#259=CARTESIAN_POINT('',(-668.946735127765,5081.15491454078,1.53080849893419E-14));
#260=CARTESIAN_POINT('Origin',(-652.630961100259,4957.22430686905,0.));
#261=CARTESIAN_POINT('Origin',(-652.630961100259,4957.22430686905,0.));
#262=CARTESIAN_POINT('Origin',(-1247.49787792454,4878.90859153702,0.));
#263=CARTESIAN_POINT('',(-1263.81365195205,5002.83919920875,1.53080849893419E-14));
#264=CARTESIAN_POINT('',(-1263.81365195205,5002.83919920875,1.53080849893419E-14));
#265=CARTESIAN_POINT('',(-1231.18210389704,4754.9779838653,0.));
#266=CARTESIAN_POINT('Origin',(-1247.49787792454,4878.90859153702,0.));
#267=CARTESIAN_POINT('Origin',(-1247.49787792454,4878.90859153702,0.));
#268=CARTESIAN_POINT('Origin',(-1247.49787792454,4878.90859153702,0.));
#269=CARTESIAN_POINT('Origin',(1247.49787792454,4878.90859153702,0.));
#270=UNCERTAINTY_MEASURE_WITH_UNIT(LENGTH_MEASURE(0.01),#274,
'DISTANCE_ACCURACY_VALUE',
'Maximum model space distance between geometric entities at asserted c
onnectivities');
#271=UNCERTAINTY_MEASURE_WITH_UNIT(LENGTH_MEASURE(0.01),#274,
'DISTANCE_ACCURACY_VALUE',
'Maximum model space distance between geometric entities at asserted c
onnectivities');
#272=(
GEOMETRIC_REPRESENTATION_CONTEXT(3)
GLOBAL_UNCERTAINTY_ASSIGNED_CONTEXT((#270))
GLOBAL_UNIT_ASSIGNED_CONTEXT((#274,#276,#277))
REPRESENTATION_CONTEXT('','3D')
);
#273=(
GEOMETRIC_REPRESENTATION_CONTEXT(3)
GLOBAL_UNCERTAINTY_ASSIGNED_CONTEXT((#271))
GLOBAL_UNIT_ASSIGNED_CONTEXT((#274,#276,#277))
REPRESENTATION_CONTEXT('','3D')
);
#274=(
LENGTH_UNIT()
NAMED_UNIT(*)
SI_UNIT(.MILLI.,.METRE.)
);
#275=(
LENGTH_UNIT()
NAMED_UNIT(*)
SI_UNIT(.CENTI.,.METRE.)
);
#276=(
NAMED_UNIT(*)
PLANE_ANGLE_UNIT()
SI_UNIT($,.RADIAN.)
);
#277=(
NAMED_UNIT(*)
SI_UNIT($,.STERADIAN.)
SOLID_ANGLE_UNIT()
);
#278=SHAPE_DEFINITION_REPRESENTATION(#279,#280);
#279=PRODUCT_DEFINITION_SHAPE('',$,#282);
#280=SHAPE_REPRESENTATION('',(#158),#272);
#281=DESIGN_CONTEXT('part definition',#286,'design');
#282=PRODUCT_DEFINITION('L-PP-Bogen_250_R5000_15\X\B0',
'Kabelschutzbogenrohr_250_R5000_15\X\B0_35707_734410',#283,#281);
#283=PRODUCT_DEFINITION_FORMATION('',$,#288);
#284=PRODUCT_RELATED_PRODUCT_CATEGORY(
'Kabelschutzbogenrohr_250_R5000_15\X\B0_35707_734410',
'Kabelschutzbogenrohr_250_R5000_15\X\B0_35707_734410',(#288));
#285=APPLICATION_PROTOCOL_DEFINITION('international standard',
'ap203_configuration_controlled_3d_design_of_mechanical_parts_and_asse
mblies_mim_lf',2004,#286);
#286=APPLICATION_CONTEXT(
'Configuration Controlled 3D Design of Mechanical Parts and Assemblies');
#287=MECHANICAL_CONTEXT('part definition',#286,'mechanical');
#288=PRODUCT('L-PP-Bogen_250_R5000_15\X\B0',
'Kabelschutzbogenrohr_250_R5000_15\X\B0_35707_734410',$,(#287));
#289=PRESENTATION_STYLE_ASSIGNMENT((#290));
#290=SURFACE_STYLE_USAGE(.BOTH.,#293);
#291=SURFACE_STYLE_RENDERING_WITH_PROPERTIES($,#297,(#292));
#292=SURFACE_STYLE_TRANSPARENT(0.);
#293=SURFACE_SIDE_STYLE('',(#294,#291));
#294=SURFACE_STYLE_FILL_AREA(#295);
#295=FILL_AREA_STYLE('',(#296));
#296=FILL_AREA_STYLE_COLOUR('',#297);
#297=COLOUR_RGB('',0.270588235294118,0.270588235294118,0.270588235294118);
ENDSEC;
END-ISO-10303-21;
