ISO-10303-21;
HEADER;
/* Generated by software containing ST-Developer
 * from STEP Tools, Inc. (www.steptools.com) 
 */

FILE_DESCRIPTION(
/* description */ (''),
/* implementation_level */ '2;1');

FILE_NAME(
/* name */ '732780z.stp',
/* time_stamp */ '2026-01-08T10:16:23+01:00',
/* author */ ('corinna'),
/* organization */ (''),
/* preprocessor_version */ 'ST-DEVELOPER v20',
/* originating_system */ 'Autodesk Inventor 2024',
/* authorisation */ '');

FILE_SCHEMA (('AUTOMOTIVE_DESIGN { 1 0 10303 214 3 1 1 }'));
ENDSEC;

DATA;
#10=MECHANICAL_DESIGN_GEOMETRIC_PRESENTATION_REPRESENTATION('',(#13),#478);
#11=SHAPE_REPRESENTATION_RELATIONSHIP('SRR','None',#485,#12);
#12=ADVANCED_BREP_SHAPE_REPRESENTATION('',(#14),#477);
#13=STYLED_ITEM('',(#494),#14);
#14=MANIFOLD_SOLID_BREP('Volumenk\X\F6rper1',#249);
#15=TOROIDAL_SURFACE('',#282,119.400000000176,0.399999999999938);
#16=TOROIDAL_SURFACE('',#285,123.115667178475,4.99999999999985);
#17=TOROIDAL_SURFACE('',#296,123.115667178305,4.99999999999985);
#18=TOROIDAL_SURFACE('',#299,119.400000000005,0.399999999999938);
#19=CYLINDRICAL_SURFACE('',#279,119.800000000177);
#20=CYLINDRICAL_SURFACE('',#291,117.299999904121);
#21=CYLINDRICAL_SURFACE('',#303,119.800000000005);
#22=CYLINDRICAL_SURFACE('',#311,125.00000000006);
#23=FACE_BOUND('',#45,.T.);
#24=FACE_BOUND('',#58,.T.);
#25=PLANE('',#275);
#26=PLANE('',#307);
#27=FACE_OUTER_BOUND('',#43,.T.);
#28=FACE_OUTER_BOUND('',#44,.T.);
#29=FACE_OUTER_BOUND('',#46,.T.);
#30=FACE_OUTER_BOUND('',#47,.T.);
#31=FACE_OUTER_BOUND('',#48,.T.);
#32=FACE_OUTER_BOUND('',#49,.T.);
#33=FACE_OUTER_BOUND('',#50,.T.);
#34=FACE_OUTER_BOUND('',#51,.T.);
#35=FACE_OUTER_BOUND('',#52,.T.);
#36=FACE_OUTER_BOUND('',#53,.T.);
#37=FACE_OUTER_BOUND('',#54,.T.);
#38=FACE_OUTER_BOUND('',#55,.T.);
#39=FACE_OUTER_BOUND('',#56,.T.);
#40=FACE_OUTER_BOUND('',#57,.T.);
#41=FACE_OUTER_BOUND('',#59,.T.);
#42=FACE_OUTER_BOUND('',#60,.T.);
#43=EDGE_LOOP('',(#159,#160,#161,#162));
#44=EDGE_LOOP('',(#163));
#45=EDGE_LOOP('',(#164));
#46=EDGE_LOOP('',(#165,#166,#167,#168));
#47=EDGE_LOOP('',(#169,#170,#171,#172,#173));
#48=EDGE_LOOP('',(#174,#175,#176,#177,#178));
#49=EDGE_LOOP('',(#179,#180,#181,#182,#183));
#50=EDGE_LOOP('',(#184,#185,#186,#187,#188));
#51=EDGE_LOOP('',(#189,#190,#191,#192));
#52=EDGE_LOOP('',(#193,#194,#195,#196,#197));
#53=EDGE_LOOP('',(#198,#199,#200,#201,#202));
#54=EDGE_LOOP('',(#203,#204,#205,#206,#207));
#55=EDGE_LOOP('',(#208,#209,#210,#211,#212));
#56=EDGE_LOOP('',(#213,#214,#215,#216));
#57=EDGE_LOOP('',(#217));
#58=EDGE_LOOP('',(#218));
#59=EDGE_LOOP('',(#219,#220,#221,#222));
#60=EDGE_LOOP('',(#223,#224,#225,#226));
#61=LINE('',#409,#71);
#62=LINE('',#416,#72);
#63=LINE('',#420,#73);
#64=LINE('',#436,#74);
#65=LINE('',#440,#75);
#66=LINE('',#444,#76);
#67=LINE('',#460,#77);
#68=LINE('',#464,#78);
#69=LINE('',#472,#79);
#70=LINE('',#474,#80);
#71=VECTOR('',#318,124.330127019068);
#72=VECTOR('',#327,120.871796769904);
#73=VECTOR('',#332,119.800000000177);
#74=VECTOR('',#353,117.739436579793);
#75=VECTOR('',#358,117.299999904121);
#76=VECTOR('',#363,117.739436579594);
#77=VECTOR('',#384,119.800000000005);
#78=VECTOR('',#389,120.871796769731);
#79=VECTOR('',#400,124.33012701893);
#80=VECTOR('',#403,125.00000000006);
#81=CIRCLE('',#273,123.660254038026);
#82=CIRCLE('',#274,125.000000000111);
#83=CIRCLE('',#276,121.94359353963);
#84=CIRCLE('',#278,119.800000000179);
#85=CIRCLE('',#280,119.800000000176);
#86=CIRCLE('',#281,119.800000000176);
#87=CIRCLE('',#283,0.399999999999938);
#88=CIRCLE('',#284,119.675234605975);
#89=CIRCLE('',#286,118.178873255352);
#90=CIRCLE('',#287,118.178873255352);
#91=CIRCLE('',#288,4.99999999999985);
#92=CIRCLE('',#290,117.299999904234);
#93=CIRCLE('',#292,117.299999904008);
#94=CIRCLE('',#294,118.178873255181);
#95=CIRCLE('',#295,118.178873255181);
#96=CIRCLE('',#297,119.675234605805);
#97=CIRCLE('',#298,4.99999999999985);
#98=CIRCLE('',#300,0.399999999999938);
#99=CIRCLE('',#301,119.800000000005);
#100=CIRCLE('',#302,119.800000000005);
#101=CIRCLE('',#304,119.800000000005);
#102=CIRCLE('',#306,121.943593539456);
#103=CIRCLE('',#308,123.660254037852);
#104=CIRCLE('',#310,125.000000000008);
#105=VERTEX_POINT('',#406);
#106=VERTEX_POINT('',#408);
#107=VERTEX_POINT('',#412);
#108=VERTEX_POINT('',#415);
#109=VERTEX_POINT('',#419);
#110=VERTEX_POINT('',#421);
#111=VERTEX_POINT('',#425);
#112=VERTEX_POINT('',#429);
#113=VERTEX_POINT('',#430);
#114=VERTEX_POINT('',#435);
#115=VERTEX_POINT('',#439);
#116=VERTEX_POINT('',#443);
#117=VERTEX_POINT('',#445);
#118=VERTEX_POINT('',#449);
#119=VERTEX_POINT('',#453);
#120=VERTEX_POINT('',#455);
#121=VERTEX_POINT('',#459);
#122=VERTEX_POINT('',#463);
#123=VERTEX_POINT('',#467);
#124=VERTEX_POINT('',#470);
#125=EDGE_CURVE('',#105,#105,#81,.T.);
#126=EDGE_CURVE('',#105,#106,#61,.T.);
#127=EDGE_CURVE('',#106,#106,#82,.T.);
#128=EDGE_CURVE('',#107,#107,#83,.T.);
#129=EDGE_CURVE('',#107,#108,#62,.T.);
#130=EDGE_CURVE('',#108,#108,#84,.T.);
#131=EDGE_CURVE('',#108,#109,#63,.T.);
#132=EDGE_CURVE('',#110,#109,#85,.T.);
#133=EDGE_CURVE('',#109,#110,#86,.T.);
#134=EDGE_CURVE('',#110,#111,#87,.T.);
#135=EDGE_CURVE('',#111,#111,#88,.T.);
#136=EDGE_CURVE('',#112,#113,#89,.T.);
#137=EDGE_CURVE('',#113,#112,#90,.T.);
#138=EDGE_CURVE('',#113,#111,#91,.T.);
#139=EDGE_CURVE('',#112,#114,#64,.T.);
#140=EDGE_CURVE('',#114,#114,#92,.T.);
#141=EDGE_CURVE('',#114,#115,#65,.T.);
#142=EDGE_CURVE('',#115,#115,#93,.T.);
#143=EDGE_CURVE('',#115,#116,#66,.T.);
#144=EDGE_CURVE('',#117,#116,#94,.T.);
#145=EDGE_CURVE('',#116,#117,#95,.T.);
#146=EDGE_CURVE('',#118,#118,#96,.T.);
#147=EDGE_CURVE('',#118,#117,#97,.T.);
#148=EDGE_CURVE('',#118,#119,#98,.T.);
#149=EDGE_CURVE('',#120,#119,#99,.T.);
#150=EDGE_CURVE('',#119,#120,#100,.T.);
#151=EDGE_CURVE('',#120,#121,#67,.T.);
#152=EDGE_CURVE('',#121,#121,#101,.T.);
#153=EDGE_CURVE('',#121,#122,#68,.T.);
#154=EDGE_CURVE('',#122,#122,#102,.T.);
#155=EDGE_CURVE('',#123,#123,#103,.T.);
#156=EDGE_CURVE('',#124,#124,#104,.T.);
#157=EDGE_CURVE('',#124,#123,#69,.T.);
#158=EDGE_CURVE('',#106,#124,#70,.T.);
#159=ORIENTED_EDGE('',*,*,#125,.F.);
#160=ORIENTED_EDGE('',*,*,#126,.T.);
#161=ORIENTED_EDGE('',*,*,#127,.T.);
#162=ORIENTED_EDGE('',*,*,#126,.F.);
#163=ORIENTED_EDGE('',*,*,#125,.T.);
#164=ORIENTED_EDGE('',*,*,#128,.F.);
#165=ORIENTED_EDGE('',*,*,#128,.T.);
#166=ORIENTED_EDGE('',*,*,#129,.T.);
#167=ORIENTED_EDGE('',*,*,#130,.F.);
#168=ORIENTED_EDGE('',*,*,#129,.F.);
#169=ORIENTED_EDGE('',*,*,#130,.T.);
#170=ORIENTED_EDGE('',*,*,#131,.T.);
#171=ORIENTED_EDGE('',*,*,#132,.F.);
#172=ORIENTED_EDGE('',*,*,#133,.F.);
#173=ORIENTED_EDGE('',*,*,#131,.F.);
#174=ORIENTED_EDGE('',*,*,#133,.T.);
#175=ORIENTED_EDGE('',*,*,#134,.T.);
#176=ORIENTED_EDGE('',*,*,#135,.F.);
#177=ORIENTED_EDGE('',*,*,#134,.F.);
#178=ORIENTED_EDGE('',*,*,#132,.T.);
#179=ORIENTED_EDGE('',*,*,#136,.F.);
#180=ORIENTED_EDGE('',*,*,#137,.F.);
#181=ORIENTED_EDGE('',*,*,#138,.T.);
#182=ORIENTED_EDGE('',*,*,#135,.T.);
#183=ORIENTED_EDGE('',*,*,#138,.F.);
#184=ORIENTED_EDGE('',*,*,#136,.T.);
#185=ORIENTED_EDGE('',*,*,#137,.T.);
#186=ORIENTED_EDGE('',*,*,#139,.T.);
#187=ORIENTED_EDGE('',*,*,#140,.F.);
#188=ORIENTED_EDGE('',*,*,#139,.F.);
#189=ORIENTED_EDGE('',*,*,#140,.T.);
#190=ORIENTED_EDGE('',*,*,#141,.T.);
#191=ORIENTED_EDGE('',*,*,#142,.F.);
#192=ORIENTED_EDGE('',*,*,#141,.F.);
#193=ORIENTED_EDGE('',*,*,#142,.T.);
#194=ORIENTED_EDGE('',*,*,#143,.T.);
#195=ORIENTED_EDGE('',*,*,#144,.F.);
#196=ORIENTED_EDGE('',*,*,#145,.F.);
#197=ORIENTED_EDGE('',*,*,#143,.F.);
#198=ORIENTED_EDGE('',*,*,#146,.F.);
#199=ORIENTED_EDGE('',*,*,#147,.T.);
#200=ORIENTED_EDGE('',*,*,#144,.T.);
#201=ORIENTED_EDGE('',*,*,#145,.T.);
#202=ORIENTED_EDGE('',*,*,#147,.F.);
#203=ORIENTED_EDGE('',*,*,#146,.T.);
#204=ORIENTED_EDGE('',*,*,#148,.T.);
#205=ORIENTED_EDGE('',*,*,#149,.F.);
#206=ORIENTED_EDGE('',*,*,#150,.F.);
#207=ORIENTED_EDGE('',*,*,#148,.F.);
#208=ORIENTED_EDGE('',*,*,#149,.T.);
#209=ORIENTED_EDGE('',*,*,#150,.T.);
#210=ORIENTED_EDGE('',*,*,#151,.T.);
#211=ORIENTED_EDGE('',*,*,#152,.F.);
#212=ORIENTED_EDGE('',*,*,#151,.F.);
#213=ORIENTED_EDGE('',*,*,#152,.T.);
#214=ORIENTED_EDGE('',*,*,#153,.T.);
#215=ORIENTED_EDGE('',*,*,#154,.F.);
#216=ORIENTED_EDGE('',*,*,#153,.F.);
#217=ORIENTED_EDGE('',*,*,#155,.F.);
#218=ORIENTED_EDGE('',*,*,#154,.T.);
#219=ORIENTED_EDGE('',*,*,#156,.F.);
#220=ORIENTED_EDGE('',*,*,#157,.T.);
#221=ORIENTED_EDGE('',*,*,#155,.T.);
#222=ORIENTED_EDGE('',*,*,#157,.F.);
#223=ORIENTED_EDGE('',*,*,#127,.F.);
#224=ORIENTED_EDGE('',*,*,#158,.T.);
#225=ORIENTED_EDGE('',*,*,#156,.T.);
#226=ORIENTED_EDGE('',*,*,#158,.F.);
#227=CONICAL_SURFACE('',#272,124.330127019068,0.261799387785828);
#228=CONICAL_SURFACE('',#277,120.871796769904,0.261799387799652);
#229=CONICAL_SURFACE('',#289,117.739436579793,0.261799387783393);
#230=CONICAL_SURFACE('',#293,117.739436579594,0.261799387799094);
#231=CONICAL_SURFACE('',#305,120.871796769731,0.261799387799594);
#232=CONICAL_SURFACE('',#309,124.33012701893,0.261799387798943);
#233=ADVANCED_FACE('',(#27),#227,.T.);
#234=ADVANCED_FACE('',(#28,#23),#25,.T.);
#235=ADVANCED_FACE('',(#29),#228,.F.);
#236=ADVANCED_FACE('',(#30),#19,.F.);
#237=ADVANCED_FACE('',(#31),#15,.F.);
#238=ADVANCED_FACE('',(#32),#16,.T.);
#239=ADVANCED_FACE('',(#33),#229,.F.);
#240=ADVANCED_FACE('',(#34),#20,.F.);
#241=ADVANCED_FACE('',(#35),#230,.F.);
#242=ADVANCED_FACE('',(#36),#17,.T.);
#243=ADVANCED_FACE('',(#37),#18,.F.);
#244=ADVANCED_FACE('',(#38),#21,.F.);
#245=ADVANCED_FACE('',(#39),#231,.F.);
#246=ADVANCED_FACE('',(#40,#24),#26,.T.);
#247=ADVANCED_FACE('',(#41),#232,.T.);
#248=ADVANCED_FACE('',(#42),#22,.T.);
#249=CLOSED_SHELL('',(#233,#234,#235,#236,#237,#238,#239,#240,#241,#242,
#243,#244,#245,#246,#247,#248));
#250=DERIVED_UNIT_ELEMENT(#253,1.);
#251=DERIVED_UNIT_ELEMENT(#480,-3.);
#252=DIMENSIONAL_EXPONENTS(0.,1.,0.,0.,0.,0.,0.);
#253=(
CONVERSION_BASED_UNIT('gram',#255)
MASS_UNIT()
NAMED_UNIT(#252)
);
#254=(
MASS_UNIT()
NAMED_UNIT(*)
SI_UNIT(.KILO.,.GRAM.)
);
#255=MASS_MEASURE_WITH_UNIT(MASS_MEASURE(0.001),#254);
#256=DERIVED_UNIT((#250,#251));
#257=MEASURE_REPRESENTATION_ITEM('density measure',
POSITIVE_RATIO_MEASURE(1.),#256);
#258=PROPERTY_DEFINITION_REPRESENTATION(#263,#260);
#259=PROPERTY_DEFINITION_REPRESENTATION(#264,#261);
#260=REPRESENTATION('material name',(#262),#477);
#261=REPRESENTATION('density',(#257),#477);
#262=DESCRIPTIVE_REPRESENTATION_ITEM('Generisch','Generisch');
#263=PROPERTY_DEFINITION('material property','material name',#487);
#264=PROPERTY_DEFINITION('material property','density of part',#487);
#265=DATE_TIME_ROLE('creation_date');
#266=APPLIED_DATE_AND_TIME_ASSIGNMENT(#267,#265,(#487));
#267=DATE_AND_TIME(#268,#269);
#268=CALENDAR_DATE(2026,8,1);
#269=LOCAL_TIME(0,0,0.,#270);
#270=COORDINATED_UNIVERSAL_TIME_OFFSET(0,0,.BEHIND.);
#271=AXIS2_PLACEMENT_3D('',#404,#312,#313);
#272=AXIS2_PLACEMENT_3D('',#405,#314,#315);
#273=AXIS2_PLACEMENT_3D('',#407,#316,#317);
#274=AXIS2_PLACEMENT_3D('',#410,#319,#320);
#275=AXIS2_PLACEMENT_3D('',#411,#321,#322);
#276=AXIS2_PLACEMENT_3D('',#413,#323,#324);
#277=AXIS2_PLACEMENT_3D('',#414,#325,#326);
#278=AXIS2_PLACEMENT_3D('',#417,#328,#329);
#279=AXIS2_PLACEMENT_3D('',#418,#330,#331);
#280=AXIS2_PLACEMENT_3D('',#422,#333,#334);
#281=AXIS2_PLACEMENT_3D('',#423,#335,#336);
#282=AXIS2_PLACEMENT_3D('',#424,#337,#338);
#283=AXIS2_PLACEMENT_3D('',#426,#339,#340);
#284=AXIS2_PLACEMENT_3D('',#427,#341,#342);
#285=AXIS2_PLACEMENT_3D('',#428,#343,#344);
#286=AXIS2_PLACEMENT_3D('',#431,#345,#346);
#287=AXIS2_PLACEMENT_3D('',#432,#347,#348);
#288=AXIS2_PLACEMENT_3D('',#433,#349,#350);
#289=AXIS2_PLACEMENT_3D('',#434,#351,#352);
#290=AXIS2_PLACEMENT_3D('',#437,#354,#355);
#291=AXIS2_PLACEMENT_3D('',#438,#356,#357);
#292=AXIS2_PLACEMENT_3D('',#441,#359,#360);
#293=AXIS2_PLACEMENT_3D('',#442,#361,#362);
#294=AXIS2_PLACEMENT_3D('',#446,#364,#365);
#295=AXIS2_PLACEMENT_3D('',#447,#366,#367);
#296=AXIS2_PLACEMENT_3D('',#448,#368,#369);
#297=AXIS2_PLACEMENT_3D('',#450,#370,#371);
#298=AXIS2_PLACEMENT_3D('',#451,#372,#373);
#299=AXIS2_PLACEMENT_3D('',#452,#374,#375);
#300=AXIS2_PLACEMENT_3D('',#454,#376,#377);
#301=AXIS2_PLACEMENT_3D('',#456,#378,#379);
#302=AXIS2_PLACEMENT_3D('',#457,#380,#381);
#303=AXIS2_PLACEMENT_3D('',#458,#382,#383);
#304=AXIS2_PLACEMENT_3D('',#461,#385,#386);
#305=AXIS2_PLACEMENT_3D('',#462,#387,#388);
#306=AXIS2_PLACEMENT_3D('',#465,#390,#391);
#307=AXIS2_PLACEMENT_3D('',#466,#392,#393);
#308=AXIS2_PLACEMENT_3D('',#468,#394,#395);
#309=AXIS2_PLACEMENT_3D('',#469,#396,#397);
#310=AXIS2_PLACEMENT_3D('',#471,#398,#399);
#311=AXIS2_PLACEMENT_3D('',#473,#401,#402);
#312=DIRECTION('axis',(0.,0.,1.));
#313=DIRECTION('refdir',(1.,0.,0.));
#314=DIRECTION('center_axis',(1.,2.89363895323032E-14,0.));
#315=DIRECTION('ref_axis',(-2.72848410531763E-14,1.,0.));
#316=DIRECTION('center_axis',(-1.,-2.89363895323032E-14,0.));
#317=DIRECTION('ref_axis',(0.,0.,1.));
#318=DIRECTION('',(0.965925826292524,-0.258819045089625,3.16961915127418E-17));
#319=DIRECTION('center_axis',(-1.,-2.89363895323032E-14,0.));
#320=DIRECTION('ref_axis',(0.,0.,1.));
#321=DIRECTION('center_axis',(-1.,-2.89363895323032E-14,0.));
#322=DIRECTION('ref_axis',(0.,0.,1.));
#323=DIRECTION('center_axis',(-1.,-2.89363895323032E-14,0.));
#324=DIRECTION('ref_axis',(0.,0.,1.));
#325=DIRECTION('center_axis',(-1.,-2.89363895323032E-14,0.));
#326=DIRECTION('ref_axis',(-2.72848410531763E-14,1.,0.));
#327=DIRECTION('',(0.965925826288931,0.258819045103034,-3.16961915143771E-17));
#328=DIRECTION('center_axis',(-1.,-2.89363895323032E-14,0.));
#329=DIRECTION('ref_axis',(0.,0.,1.));
#330=DIRECTION('center_axis',(-1.,-2.89363895323032E-14,0.));
#331=DIRECTION('ref_axis',(-2.72848410531763E-14,1.,0.));
#332=DIRECTION('',(1.,2.89363895323032E-14,0.));
#333=DIRECTION('center_axis',(-1.,-2.89363895323032E-14,0.));
#334=DIRECTION('ref_axis',(0.,0.,1.));
#335=DIRECTION('center_axis',(-1.,-2.89363895323032E-14,0.));
#336=DIRECTION('ref_axis',(0.,0.,1.));
#337=DIRECTION('center_axis',(-1.,-2.89363895323032E-14,0.));
#338=DIRECTION('ref_axis',(0.,0.,1.));
#339=DIRECTION('center_axis',(2.89363895323032E-14,-1.,1.22464679914601E-16));
#340=DIRECTION('ref_axis',(0.,-1.22464679914601E-16,-1.));
#341=DIRECTION('center_axis',(-1.,-2.89363895323032E-14,0.));
#342=DIRECTION('ref_axis',(0.,0.,1.));
#343=DIRECTION('center_axis',(-1.,-2.89363895323032E-14,0.));
#344=DIRECTION('ref_axis',(0.,0.,1.));
#345=DIRECTION('center_axis',(-1.,-2.89363895323032E-14,0.));
#346=DIRECTION('ref_axis',(0.,0.,1.));
#347=DIRECTION('center_axis',(-1.,-2.89363895323032E-14,0.));
#348=DIRECTION('ref_axis',(0.,0.,1.));
#349=DIRECTION('center_axis',(2.89363895323032E-14,-1.,1.224646799148E-16));
#350=DIRECTION('ref_axis',(0.,-1.224646799148E-16,-1.));
#351=DIRECTION('center_axis',(-1.,-2.89363895323032E-14,0.));
#352=DIRECTION('ref_axis',(-2.72848410531763E-14,1.,0.));
#353=DIRECTION('',(0.965925826293139,0.258819045087329,-3.16961915124538E-17));
#354=DIRECTION('center_axis',(-1.,-2.89363895323032E-14,0.));
#355=DIRECTION('ref_axis',(0.,0.,1.));
#356=DIRECTION('center_axis',(-1.,-2.89363895323032E-14,0.));
#357=DIRECTION('ref_axis',(-2.72848410531763E-14,1.,0.));
#358=DIRECTION('',(1.,2.89363895323032E-14,0.));
#359=DIRECTION('center_axis',(-1.,-2.89363895323032E-14,0.));
#360=DIRECTION('ref_axis',(0.,0.,1.));
#361=DIRECTION('center_axis',(1.,2.89363895323032E-14,0.));
#362=DIRECTION('ref_axis',(-2.72848410531763E-14,1.,0.));
#363=DIRECTION('',(0.96592582628909,-0.258819045102439,3.16961915143111E-17));
#364=DIRECTION('center_axis',(-1.,-2.89363895323032E-14,0.));
#365=DIRECTION('ref_axis',(0.,0.,1.));
#366=DIRECTION('center_axis',(-1.,-2.89363895323032E-14,0.));
#367=DIRECTION('ref_axis',(0.,0.,1.));
#368=DIRECTION('center_axis',(-1.,-2.89363895323032E-14,0.));
#369=DIRECTION('ref_axis',(0.,0.,1.));
#370=DIRECTION('center_axis',(-1.,-2.89363895323032E-14,0.));
#371=DIRECTION('ref_axis',(0.,0.,1.));
#372=DIRECTION('center_axis',(2.89363895323032E-14,-1.,1.22464679914742E-16));
#373=DIRECTION('ref_axis',(0.,-1.22464679914742E-16,-1.));
#374=DIRECTION('center_axis',(-1.,-2.89363895323032E-14,0.));
#375=DIRECTION('ref_axis',(0.,0.,1.));
#376=DIRECTION('center_axis',(2.89363895323032E-14,-1.,1.22464679914733E-16));
#377=DIRECTION('ref_axis',(0.,-1.22464679914733E-16,-1.));
#378=DIRECTION('center_axis',(-1.,-2.89363895323032E-14,0.));
#379=DIRECTION('ref_axis',(0.,0.,1.));
#380=DIRECTION('center_axis',(-1.,-2.89363895323032E-14,0.));
#381=DIRECTION('ref_axis',(0.,0.,1.));
#382=DIRECTION('center_axis',(-1.,-2.89363895323032E-14,0.));
#383=DIRECTION('ref_axis',(-2.72848410531763E-14,1.,0.));
#384=DIRECTION('',(1.,2.89363895323032E-14,0.));
#385=DIRECTION('center_axis',(-1.,-2.89363895323032E-14,0.));
#386=DIRECTION('ref_axis',(0.,0.,1.));
#387=DIRECTION('center_axis',(1.,2.89363895323032E-14,0.));
#388=DIRECTION('ref_axis',(-2.72848410531763E-14,1.,0.));
#389=DIRECTION('',(0.965925826288961,-0.258819045102923,3.16961915143703E-17));
#390=DIRECTION('center_axis',(-1.,-2.89363895323032E-14,0.));
#391=DIRECTION('ref_axis',(0.,0.,1.));
#392=DIRECTION('center_axis',(1.,2.89363895323032E-14,0.));
#393=DIRECTION('ref_axis',(0.,0.,-1.));
#394=DIRECTION('center_axis',(-1.,-2.89363895323032E-14,0.));
#395=DIRECTION('ref_axis',(0.,0.,1.));
#396=DIRECTION('center_axis',(-1.,-2.89363895323032E-14,0.));
#397=DIRECTION('ref_axis',(-2.72848410531763E-14,1.,0.));
#398=DIRECTION('center_axis',(-1.,-2.89363895323032E-14,0.));
#399=DIRECTION('ref_axis',(0.,0.,1.));
#400=DIRECTION('',(0.965925826289114,0.258819045102349,-3.16961915142932E-17));
#401=DIRECTION('center_axis',(-1.,-2.89363895323032E-14,0.));
#402=DIRECTION('ref_axis',(-2.72848410531763E-14,1.,0.));
#403=DIRECTION('',(1.,2.89363895323032E-14,0.));
#404=CARTESIAN_POINT('',(0.,0.,0.));
#405=CARTESIAN_POINT('Origin',(2.49999999948159,-1.81276478575477E-10,0.));
#406=CARTESIAN_POINT('',(-5.17474951777785E-10,-123.660254038207,1.51440134289417E-14));
#407=CARTESIAN_POINT('Origin',(-5.20685716765001E-10,-1.81348819549307E-10,
0.));
#408=CARTESIAN_POINT('',(4.9999999994869,-125.000000000292,1.53080849893555E-14));
#409=CARTESIAN_POINT('',(2.49999999948498,-124.33012701925,1.52260492091486E-14));
#410=CARTESIAN_POINT('Origin',(4.99999999948329,-1.81204137601646E-10,0.));
#411=CARTESIAN_POINT('Origin',(-5.16593461484672E-10,121.943593539449,0.));
#412=CARTESIAN_POINT('',(-5.10155251376432E-10,-121.943593539811,1.49337831504834E-14));
#413=CARTESIAN_POINT('Origin',(-5.13296072313096E-10,-1.81348819549307E-10,
0.));
#414=CARTESIAN_POINT('Origin',(3.99999999948307,-1.81233073991178E-10,0.));
#415=CARTESIAN_POINT('',(7.99999999948289,-119.80000000036,1.46712686538072E-14));
#416=CARTESIAN_POINT('',(3.99999999948636,-120.871796770085,1.48025259021453E-14));
#417=CARTESIAN_POINT('Origin',(7.99999999947943,-1.81117328433049E-10,0.));
#418=CARTESIAN_POINT('Origin',(26.4120556244541,-1.80584550019394E-10,0.));
#419=CARTESIAN_POINT('',(44.8241112494321,-119.800000000357,1.4671268653807E-14));
#420=CARTESIAN_POINT('',(26.4120556244573,-119.800000000358,1.4671268653807E-14));
#421=CARTESIAN_POINT('',(44.8241112494287,-1.80066442874393E-10,-119.800000000176));
#422=CARTESIAN_POINT('Origin',(44.8241112494287,-1.8005177160574E-10,0.));
#423=CARTESIAN_POINT('Origin',(44.8241112494287,-1.8005177160574E-10,0.));
#424=CARTESIAN_POINT('Origin',(44.8241112494276,-1.8005177160574E-10,0.));
#425=CARTESIAN_POINT('',(45.1143627124225,-1.80058028765644E-10,-119.675234605975));
#426=CARTESIAN_POINT('Origin',(44.8241112494276,-1.80066393888521E-10,-119.400000000176));
#427=CARTESIAN_POINT('Origin',(45.1143627124225,-1.80043372776344E-10,0.));
#428=CARTESIAN_POINT('Origin',(48.7425059998458,-1.799383874089E-10,0.));
#429=CARTESIAN_POINT('',(47.9499999994871,-118.178873255532,1.44727378859008E-14));
#430=CARTESIAN_POINT('',(47.949999999484,-1.79975792409119E-10,-118.178873255352));
#431=CARTESIAN_POINT('Origin',(47.949999999484,-1.79961319671233E-10,0.));
#432=CARTESIAN_POINT('Origin',(47.949999999484,-1.79961319671233E-10,0.));
#433=CARTESIAN_POINT('Origin',(48.7425059998458,-1.79953464729674E-10,-123.115667178475));
#434=CARTESIAN_POINT('Origin',(49.5899999994833,-1.799138639924E-10,0.));
#435=CARTESIAN_POINT('',(51.229999999486,-117.299999904413,1.43651069422705E-14));
#436=CARTESIAN_POINT('',(49.5899999994865,-117.739436579973,1.44189224140856E-14));
#437=CARTESIAN_POINT('Origin',(51.2299999994826,-1.79866408313567E-10,0.));
#438=CARTESIAN_POINT('Origin',(2999.99999999948,-9.45396509523977E-11,0.));
#439=CARTESIAN_POINT('',(5948.76999999948,-117.29999990413,1.43651069422566E-14));
#440=CARTESIAN_POINT('',(2999.99999999948,-117.299999904215,1.43651069422566E-14));
#441=CARTESIAN_POINT('Origin',(5948.76999999947,-9.21289359122816E-12,0.));
#442=CARTESIAN_POINT('Origin',(5950.40999999947,-9.16543791239523E-12,0.));
#443=CARTESIAN_POINT('',(5952.04999999948,-118.17887325519,1.44727378858799E-14));
#444=CARTESIAN_POINT('',(5950.40999999948,-117.739436579604,1.44189224140613E-14));
#445=CARTESIAN_POINT('',(5952.04999999947,-9.13245497144812E-12,-118.178873255181));
#446=CARTESIAN_POINT('Origin',(5952.04999999947,-9.11798223356226E-12,0.));
#447=CARTESIAN_POINT('Origin',(5952.04999999947,-9.11798223356226E-12,0.));
#448=CARTESIAN_POINT('Origin',(5951.25749399911,-9.14091449589539E-12,0.));
#449=CARTESIAN_POINT('',(5954.88563728653,-9.0505851177512E-12,-119.675234605805));
#450=CARTESIAN_POINT('Origin',(5954.88563728653,-9.0359291284515E-12,0.));
#451=CARTESIAN_POINT('Origin',(5951.25749399911,-9.15599181666887E-12,-123.115667178305));
#452=CARTESIAN_POINT('Origin',(5955.17588874953,-9.02753029905598E-12,0.));
#453=CARTESIAN_POINT('',(5955.17588874953,-9.04220156770977E-12,-119.800000000005));
#454=CARTESIAN_POINT('Origin',(5955.17588874953,-9.0421525818378E-12,-119.400000000005));
#455=CARTESIAN_POINT('',(5955.17588874953,-119.800000000014,1.46712686537859E-14));
#456=CARTESIAN_POINT('Origin',(5955.17588874953,-9.02753029905601E-12,0.));
#457=CARTESIAN_POINT('Origin',(5955.17588874953,-9.02753029905601E-12,0.));
#458=CARTESIAN_POINT('Origin',(5973.5879443745,-8.49475188540131E-12,0.));
#459=CARTESIAN_POINT('',(5991.99999999948,-119.800000000013,1.46712686537859E-14));
#460=CARTESIAN_POINT('',(5973.58794437451,-119.800000000014,1.46712686537859E-14));
#461=CARTESIAN_POINT('Origin',(5991.99999999948,-7.9619734717466E-12,0.));
#462=CARTESIAN_POINT('Origin',(5995.99999999947,-7.8462279136175E-12,0.));
#463=CARTESIAN_POINT('',(5999.99999999947,-121.943593539464,1.49337831504621E-14));
#464=CARTESIAN_POINT('',(5995.99999999948,-120.871796769739,1.4802525902124E-14));
#465=CARTESIAN_POINT('Origin',(5999.99999999947,-7.73048235548839E-12,0.));
#466=CARTESIAN_POINT('Origin',(5999.99999999947,123.660254037844,0.));
#467=CARTESIAN_POINT('',(5999.99999999948,-123.66025403786,1.51440134289204E-14));
#468=CARTESIAN_POINT('Origin',(5999.99999999948,-7.73048235548815E-12,0.));
#469=CARTESIAN_POINT('Origin',(5997.49999999948,-7.80282332931898E-12,0.));
#470=CARTESIAN_POINT('',(5994.99999999948,-125.000000000016,1.53080849893429E-14));
#471=CARTESIAN_POINT('Origin',(5994.99999999947,-7.87516430314981E-12,0.));
#472=CARTESIAN_POINT('',(5997.49999999948,-124.330127018938,1.52260492091316E-14));
#473=CARTESIAN_POINT('Origin',(2999.99999999948,-9.45396509523978E-11,0.));
#474=CARTESIAN_POINT('',(2999.99999999948,-125.000000000154,1.53080849893492E-14));
#475=UNCERTAINTY_MEASURE_WITH_UNIT(LENGTH_MEASURE(0.01),#479,
'DISTANCE_ACCURACY_VALUE',
'Maximum model space distance between geometric entities at asserted c
onnectivities');
#476=UNCERTAINTY_MEASURE_WITH_UNIT(LENGTH_MEASURE(0.01),#479,
'DISTANCE_ACCURACY_VALUE',
'Maximum model space distance between geometric entities at asserted c
onnectivities');
#477=(
GEOMETRIC_REPRESENTATION_CONTEXT(3)
GLOBAL_UNCERTAINTY_ASSIGNED_CONTEXT((#475))
GLOBAL_UNIT_ASSIGNED_CONTEXT((#479,#481,#482))
REPRESENTATION_CONTEXT('','3D')
);
#478=(
GEOMETRIC_REPRESENTATION_CONTEXT(3)
GLOBAL_UNCERTAINTY_ASSIGNED_CONTEXT((#476))
GLOBAL_UNIT_ASSIGNED_CONTEXT((#479,#481,#482))
REPRESENTATION_CONTEXT('','3D')
);
#479=(
LENGTH_UNIT()
NAMED_UNIT(*)
SI_UNIT(.MILLI.,.METRE.)
);
#480=(
LENGTH_UNIT()
NAMED_UNIT(*)
SI_UNIT(.CENTI.,.METRE.)
);
#481=(
NAMED_UNIT(*)
PLANE_ANGLE_UNIT()
SI_UNIT($,.RADIAN.)
);
#482=(
NAMED_UNIT(*)
SI_UNIT($,.STERADIAN.)
SOLID_ANGLE_UNIT()
);
#483=SHAPE_DEFINITION_REPRESENTATION(#484,#485);
#484=PRODUCT_DEFINITION_SHAPE('',$,#487);
#485=SHAPE_REPRESENTATION('',(#271),#477);
#486=PRODUCT_DEFINITION_CONTEXT('part definition',#491,'design');
#487=PRODUCT_DEFINITION('732780z','732780z',#488,#486);
#488=PRODUCT_DEFINITION_FORMATION('',$,#493);
#489=PRODUCT_RELATED_PRODUCT_CATEGORY('732780z','732780z',(#493));
#490=APPLICATION_PROTOCOL_DEFINITION('international standard',
'automotive_design',2009,#491);
#491=APPLICATION_CONTEXT(
'Core Data for Automotive Mechanical Design Process');
#492=PRODUCT_CONTEXT('part definition',#491,'mechanical');
#493=PRODUCT('732780z','732780z',$,(#492));
#494=PRESENTATION_STYLE_ASSIGNMENT((#495));
#495=SURFACE_STYLE_USAGE(.BOTH.,#498);
#496=SURFACE_STYLE_RENDERING_WITH_PROPERTIES($,#502,(#497));
#497=SURFACE_STYLE_TRANSPARENT(0.);
#498=SURFACE_SIDE_STYLE('',(#499,#496));
#499=SURFACE_STYLE_FILL_AREA(#500);
#500=FILL_AREA_STYLE('',(#501));
#501=FILL_AREA_STYLE_COLOUR('',#502);
#502=COLOUR_RGB('',0.749019607843137,0.749019607843137,0.749019607843137);
ENDSEC;
END-ISO-10303-21;
