ISO-10303-21;
HEADER;
/* Generated by software containing ST-Developer
 * from STEP Tools, Inc. (www.steptools.com) 
 */

FILE_DESCRIPTION(
/* description */ (''),
/* implementation_level */ '2;1');

FILE_NAME(
/* name */ '225830z.stp',
/* time_stamp */ '2025-10-08T11:39:06+02:00',
/* author */ ('corinna'),
/* organization */ (''),
/* preprocessor_version */ 'ST-DEVELOPER v20',
/* originating_system */ 'Autodesk Inventor 2024',
/* authorisation */ '');

FILE_SCHEMA (('AUTOMOTIVE_DESIGN { 1 0 10303 214 3 1 1 }'));
ENDSEC;

DATA;
#10=MECHANICAL_DESIGN_GEOMETRIC_PRESENTATION_REPRESENTATION('',(#13),#393);
#11=SHAPE_REPRESENTATION_RELATIONSHIP('SRR','None',#400,#12);
#12=ADVANCED_BREP_SHAPE_REPRESENTATION('',(#14),#392);
#13=STYLED_ITEM('',(#409),#14);
#14=MANIFOLD_SOLID_BREP('Volumenk\X\F6rper1',#201);
#15=CONICAL_SURFACE('',#246,155.892304845413,0.261799387799149);
#16=TOROIDAL_SURFACE('',#233,194.5,3.00000000000004);
#17=TOROIDAL_SURFACE('',#238,161.5,16.);
#18=TOROIDAL_SURFACE('',#251,160.5,3.);
#19=TOROIDAL_SURFACE('',#256,199.,15.);
#20=FACE_BOUND('',#43,.T.);
#21=FACE_BOUND('',#47,.T.);
#22=FACE_BOUND('',#51,.T.);
#23=FACE_BOUND('',#56,.T.);
#24=PLANE('',#228);
#25=PLANE('',#236);
#26=PLANE('',#244);
#27=PLANE('',#254);
#28=FACE_OUTER_BOUND('',#41,.T.);
#29=FACE_OUTER_BOUND('',#42,.T.);
#30=FACE_OUTER_BOUND('',#44,.T.);
#31=FACE_OUTER_BOUND('',#45,.T.);
#32=FACE_OUTER_BOUND('',#46,.T.);
#33=FACE_OUTER_BOUND('',#48,.T.);
#34=FACE_OUTER_BOUND('',#49,.T.);
#35=FACE_OUTER_BOUND('',#50,.T.);
#36=FACE_OUTER_BOUND('',#52,.T.);
#37=FACE_OUTER_BOUND('',#53,.T.);
#38=FACE_OUTER_BOUND('',#54,.T.);
#39=FACE_OUTER_BOUND('',#55,.T.);
#40=FACE_OUTER_BOUND('',#57,.T.);
#41=EDGE_LOOP('',(#132,#133,#134,#135,#136));
#42=EDGE_LOOP('',(#137));
#43=EDGE_LOOP('',(#138));
#44=EDGE_LOOP('',(#139,#140,#141,#142,#143));
#45=EDGE_LOOP('',(#144,#145,#146,#147,#148));
#46=EDGE_LOOP('',(#149));
#47=EDGE_LOOP('',(#150));
#48=EDGE_LOOP('',(#151,#152,#153,#154,#155));
#49=EDGE_LOOP('',(#156,#157,#158,#159,#160));
#50=EDGE_LOOP('',(#161));
#51=EDGE_LOOP('',(#162));
#52=EDGE_LOOP('',(#163,#164,#165,#166));
#53=EDGE_LOOP('',(#167,#168,#169,#170,#171));
#54=EDGE_LOOP('',(#172,#173,#174,#175,#176));
#55=EDGE_LOOP('',(#177));
#56=EDGE_LOOP('',(#178));
#57=EDGE_LOOP('',(#179,#180,#181,#182,#183));
#58=LINE('',#338,#63);
#59=LINE('',#347,#64);
#60=LINE('',#366,#65);
#61=LINE('',#374,#66);
#62=LINE('',#380,#67);
#63=VECTOR('',#264,214.);
#64=VECTOR('',#275,197.5);
#65=VECTOR('',#300,145.5);
#66=VECTOR('',#311,155.892304845413);
#67=VECTOR('',#318,157.5);
#68=CIRCLE('',#225,214.);
#69=CIRCLE('',#226,214.);
#70=CIRCLE('',#227,214.);
#71=CIRCLE('',#229,197.5);
#72=CIRCLE('',#231,197.5);
#73=CIRCLE('',#232,197.5);
#74=CIRCLE('',#234,3.00000000000004);
#75=CIRCLE('',#235,194.5);
#76=CIRCLE('',#237,161.5);
#77=CIRCLE('',#239,145.5);
#78=CIRCLE('',#240,16.);
#79=CIRCLE('',#241,145.5);
#80=CIRCLE('',#243,145.5);
#81=CIRCLE('',#245,154.284609690827);
#82=CIRCLE('',#247,157.5);
#83=CIRCLE('',#249,157.5);
#84=CIRCLE('',#250,157.5);
#85=CIRCLE('',#252,3.);
#86=CIRCLE('',#253,160.5);
#87=CIRCLE('',#255,199.);
#88=CIRCLE('',#257,15.);
#89=VERTEX_POINT('',#335);
#90=VERTEX_POINT('',#337);
#91=VERTEX_POINT('',#339);
#92=VERTEX_POINT('',#343);
#93=VERTEX_POINT('',#346);
#94=VERTEX_POINT('',#348);
#95=VERTEX_POINT('',#352);
#96=VERTEX_POINT('',#356);
#97=VERTEX_POINT('',#359);
#98=VERTEX_POINT('',#360);
#99=VERTEX_POINT('',#365);
#100=VERTEX_POINT('',#369);
#101=VERTEX_POINT('',#372);
#102=VERTEX_POINT('',#376);
#103=VERTEX_POINT('',#377);
#104=VERTEX_POINT('',#382);
#105=VERTEX_POINT('',#386);
#106=EDGE_CURVE('',#89,#89,#68,.T.);
#107=EDGE_CURVE('',#89,#90,#58,.T.);
#108=EDGE_CURVE('',#90,#91,#69,.T.);
#109=EDGE_CURVE('',#91,#90,#70,.T.);
#110=EDGE_CURVE('',#92,#92,#71,.T.);
#111=EDGE_CURVE('',#92,#93,#59,.T.);
#112=EDGE_CURVE('',#94,#93,#72,.T.);
#113=EDGE_CURVE('',#93,#94,#73,.T.);
#114=EDGE_CURVE('',#94,#95,#74,.T.);
#115=EDGE_CURVE('',#95,#95,#75,.T.);
#116=EDGE_CURVE('',#96,#96,#76,.T.);
#117=EDGE_CURVE('',#97,#98,#77,.T.);
#118=EDGE_CURVE('',#97,#96,#78,.T.);
#119=EDGE_CURVE('',#98,#97,#79,.T.);
#120=EDGE_CURVE('',#98,#99,#60,.T.);
#121=EDGE_CURVE('',#99,#99,#80,.T.);
#122=EDGE_CURVE('',#100,#100,#81,.T.);
#123=EDGE_CURVE('',#101,#101,#82,.T.);
#124=EDGE_CURVE('',#101,#100,#61,.T.);
#125=EDGE_CURVE('',#102,#103,#83,.T.);
#126=EDGE_CURVE('',#103,#102,#84,.T.);
#127=EDGE_CURVE('',#103,#101,#62,.T.);
#128=EDGE_CURVE('',#102,#104,#85,.T.);
#129=EDGE_CURVE('',#104,#104,#86,.T.);
#130=EDGE_CURVE('',#105,#105,#87,.T.);
#131=EDGE_CURVE('',#91,#105,#88,.T.);
#132=ORIENTED_EDGE('',*,*,#106,.F.);
#133=ORIENTED_EDGE('',*,*,#107,.T.);
#134=ORIENTED_EDGE('',*,*,#108,.T.);
#135=ORIENTED_EDGE('',*,*,#109,.T.);
#136=ORIENTED_EDGE('',*,*,#107,.F.);
#137=ORIENTED_EDGE('',*,*,#106,.T.);
#138=ORIENTED_EDGE('',*,*,#110,.F.);
#139=ORIENTED_EDGE('',*,*,#110,.T.);
#140=ORIENTED_EDGE('',*,*,#111,.T.);
#141=ORIENTED_EDGE('',*,*,#112,.F.);
#142=ORIENTED_EDGE('',*,*,#113,.F.);
#143=ORIENTED_EDGE('',*,*,#111,.F.);
#144=ORIENTED_EDGE('',*,*,#112,.T.);
#145=ORIENTED_EDGE('',*,*,#113,.T.);
#146=ORIENTED_EDGE('',*,*,#114,.T.);
#147=ORIENTED_EDGE('',*,*,#115,.F.);
#148=ORIENTED_EDGE('',*,*,#114,.F.);
#149=ORIENTED_EDGE('',*,*,#115,.T.);
#150=ORIENTED_EDGE('',*,*,#116,.F.);
#151=ORIENTED_EDGE('',*,*,#117,.F.);
#152=ORIENTED_EDGE('',*,*,#118,.T.);
#153=ORIENTED_EDGE('',*,*,#116,.T.);
#154=ORIENTED_EDGE('',*,*,#118,.F.);
#155=ORIENTED_EDGE('',*,*,#119,.F.);
#156=ORIENTED_EDGE('',*,*,#117,.T.);
#157=ORIENTED_EDGE('',*,*,#120,.T.);
#158=ORIENTED_EDGE('',*,*,#121,.F.);
#159=ORIENTED_EDGE('',*,*,#120,.F.);
#160=ORIENTED_EDGE('',*,*,#119,.T.);
#161=ORIENTED_EDGE('',*,*,#122,.F.);
#162=ORIENTED_EDGE('',*,*,#121,.T.);
#163=ORIENTED_EDGE('',*,*,#123,.F.);
#164=ORIENTED_EDGE('',*,*,#124,.T.);
#165=ORIENTED_EDGE('',*,*,#122,.T.);
#166=ORIENTED_EDGE('',*,*,#124,.F.);
#167=ORIENTED_EDGE('',*,*,#125,.F.);
#168=ORIENTED_EDGE('',*,*,#126,.F.);
#169=ORIENTED_EDGE('',*,*,#127,.T.);
#170=ORIENTED_EDGE('',*,*,#123,.T.);
#171=ORIENTED_EDGE('',*,*,#127,.F.);
#172=ORIENTED_EDGE('',*,*,#125,.T.);
#173=ORIENTED_EDGE('',*,*,#126,.T.);
#174=ORIENTED_EDGE('',*,*,#128,.T.);
#175=ORIENTED_EDGE('',*,*,#129,.F.);
#176=ORIENTED_EDGE('',*,*,#128,.F.);
#177=ORIENTED_EDGE('',*,*,#130,.F.);
#178=ORIENTED_EDGE('',*,*,#129,.T.);
#179=ORIENTED_EDGE('',*,*,#109,.F.);
#180=ORIENTED_EDGE('',*,*,#131,.T.);
#181=ORIENTED_EDGE('',*,*,#130,.T.);
#182=ORIENTED_EDGE('',*,*,#131,.F.);
#183=ORIENTED_EDGE('',*,*,#108,.F.);
#184=CYLINDRICAL_SURFACE('',#224,214.);
#185=CYLINDRICAL_SURFACE('',#230,197.5);
#186=CYLINDRICAL_SURFACE('',#242,145.5);
#187=CYLINDRICAL_SURFACE('',#248,157.5);
#188=ADVANCED_FACE('',(#28),#184,.T.);
#189=ADVANCED_FACE('',(#29,#20),#24,.T.);
#190=ADVANCED_FACE('',(#30),#185,.F.);
#191=ADVANCED_FACE('',(#31),#16,.F.);
#192=ADVANCED_FACE('',(#32,#21),#25,.T.);
#193=ADVANCED_FACE('',(#33),#17,.T.);
#194=ADVANCED_FACE('',(#34),#186,.F.);
#195=ADVANCED_FACE('',(#35,#22),#26,.T.);
#196=ADVANCED_FACE('',(#36),#15,.T.);
#197=ADVANCED_FACE('',(#37),#187,.T.);
#198=ADVANCED_FACE('',(#38),#18,.F.);
#199=ADVANCED_FACE('',(#39,#23),#27,.T.);
#200=ADVANCED_FACE('',(#40),#19,.T.);
#201=CLOSED_SHELL('',(#188,#189,#190,#191,#192,#193,#194,#195,#196,#197,
#198,#199,#200));
#202=DERIVED_UNIT_ELEMENT(#205,1.);
#203=DERIVED_UNIT_ELEMENT(#395,-3.);
#204=DIMENSIONAL_EXPONENTS(0.,1.,0.,0.,0.,0.,0.);
#205=(
CONVERSION_BASED_UNIT('gram',#207)
MASS_UNIT()
NAMED_UNIT(#204)
);
#206=(
MASS_UNIT()
NAMED_UNIT(*)
SI_UNIT(.KILO.,.GRAM.)
);
#207=MASS_MEASURE_WITH_UNIT(MASS_MEASURE(0.001),#206);
#208=DERIVED_UNIT((#202,#203));
#209=MEASURE_REPRESENTATION_ITEM('density measure',
POSITIVE_RATIO_MEASURE(1.),#208);
#210=PROPERTY_DEFINITION_REPRESENTATION(#215,#212);
#211=PROPERTY_DEFINITION_REPRESENTATION(#216,#213);
#212=REPRESENTATION('material name',(#214),#392);
#213=REPRESENTATION('density',(#209),#392);
#214=DESCRIPTIVE_REPRESENTATION_ITEM('Generisch','Generisch');
#215=PROPERTY_DEFINITION('material property','material name',#402);
#216=PROPERTY_DEFINITION('material property','density of part',#402);
#217=DATE_TIME_ROLE('creation_date');
#218=APPLIED_DATE_AND_TIME_ASSIGNMENT(#219,#217,(#402));
#219=DATE_AND_TIME(#220,#221);
#220=CALENDAR_DATE(2025,7,10);
#221=LOCAL_TIME(0,0,0.,#222);
#222=COORDINATED_UNIVERSAL_TIME_OFFSET(0,0,.BEHIND.);
#223=AXIS2_PLACEMENT_3D('',#333,#258,#259);
#224=AXIS2_PLACEMENT_3D('',#334,#260,#261);
#225=AXIS2_PLACEMENT_3D('',#336,#262,#263);
#226=AXIS2_PLACEMENT_3D('',#340,#265,#266);
#227=AXIS2_PLACEMENT_3D('',#341,#267,#268);
#228=AXIS2_PLACEMENT_3D('',#342,#269,#270);
#229=AXIS2_PLACEMENT_3D('',#344,#271,#272);
#230=AXIS2_PLACEMENT_3D('',#345,#273,#274);
#231=AXIS2_PLACEMENT_3D('',#349,#276,#277);
#232=AXIS2_PLACEMENT_3D('',#350,#278,#279);
#233=AXIS2_PLACEMENT_3D('',#351,#280,#281);
#234=AXIS2_PLACEMENT_3D('',#353,#282,#283);
#235=AXIS2_PLACEMENT_3D('',#354,#284,#285);
#236=AXIS2_PLACEMENT_3D('',#355,#286,#287);
#237=AXIS2_PLACEMENT_3D('',#357,#288,#289);
#238=AXIS2_PLACEMENT_3D('',#358,#290,#291);
#239=AXIS2_PLACEMENT_3D('',#361,#292,#293);
#240=AXIS2_PLACEMENT_3D('',#362,#294,#295);
#241=AXIS2_PLACEMENT_3D('',#363,#296,#297);
#242=AXIS2_PLACEMENT_3D('',#364,#298,#299);
#243=AXIS2_PLACEMENT_3D('',#367,#301,#302);
#244=AXIS2_PLACEMENT_3D('',#368,#303,#304);
#245=AXIS2_PLACEMENT_3D('',#370,#305,#306);
#246=AXIS2_PLACEMENT_3D('',#371,#307,#308);
#247=AXIS2_PLACEMENT_3D('',#373,#309,#310);
#248=AXIS2_PLACEMENT_3D('',#375,#312,#313);
#249=AXIS2_PLACEMENT_3D('',#378,#314,#315);
#250=AXIS2_PLACEMENT_3D('',#379,#316,#317);
#251=AXIS2_PLACEMENT_3D('',#381,#319,#320);
#252=AXIS2_PLACEMENT_3D('',#383,#321,#322);
#253=AXIS2_PLACEMENT_3D('',#384,#323,#324);
#254=AXIS2_PLACEMENT_3D('',#385,#325,#326);
#255=AXIS2_PLACEMENT_3D('',#387,#327,#328);
#256=AXIS2_PLACEMENT_3D('',#388,#329,#330);
#257=AXIS2_PLACEMENT_3D('',#389,#331,#332);
#258=DIRECTION('axis',(0.,0.,1.));
#259=DIRECTION('refdir',(1.,0.,0.));
#260=DIRECTION('center_axis',(-1.3203392269589E-32,1.,0.));
#261=DIRECTION('ref_axis',(-1.,0.,0.));
#262=DIRECTION('center_axis',(-1.3203392269589E-32,1.,0.));
#263=DIRECTION('ref_axis',(1.,1.3203392269589E-32,0.));
#264=DIRECTION('',(1.3203392269589E-32,-1.,0.));
#265=DIRECTION('center_axis',(-1.3203392269589E-32,1.,0.));
#266=DIRECTION('ref_axis',(1.,1.3203392269589E-32,0.));
#267=DIRECTION('center_axis',(-1.3203392269589E-32,1.,0.));
#268=DIRECTION('ref_axis',(1.,1.3203392269589E-32,0.));
#269=DIRECTION('center_axis',(-1.3203392269589E-32,1.,0.));
#270=DIRECTION('ref_axis',(0.,0.,1.));
#271=DIRECTION('center_axis',(-1.3203392269589E-32,1.,0.));
#272=DIRECTION('ref_axis',(1.,1.3203392269589E-32,0.));
#273=DIRECTION('center_axis',(-1.3203392269589E-32,1.,0.));
#274=DIRECTION('ref_axis',(-1.,0.,0.));
#275=DIRECTION('',(1.3203392269589E-32,-1.,0.));
#276=DIRECTION('center_axis',(-1.3203392269589E-32,1.,0.));
#277=DIRECTION('ref_axis',(1.,1.3203392269589E-32,0.));
#278=DIRECTION('center_axis',(-1.3203392269589E-32,1.,0.));
#279=DIRECTION('ref_axis',(1.,1.3203392269589E-32,0.));
#280=DIRECTION('center_axis',(-1.3203392269589E-32,1.,0.));
#281=DIRECTION('ref_axis',(0.,0.,1.));
#282=DIRECTION('center_axis',(-1.,-1.3203392269589E-32,1.22464679914735E-16));
#283=DIRECTION('ref_axis',(-1.22464679914735E-16,0.,-1.));
#284=DIRECTION('center_axis',(-1.3203392269589E-32,1.,0.));
#285=DIRECTION('ref_axis',(1.,1.3203392269589E-32,0.));
#286=DIRECTION('center_axis',(-1.3203392269589E-32,1.,0.));
#287=DIRECTION('ref_axis',(0.,0.,1.));
#288=DIRECTION('center_axis',(-1.3203392269589E-32,1.,0.));
#289=DIRECTION('ref_axis',(1.,1.3203392269589E-32,0.));
#290=DIRECTION('center_axis',(-1.3203392269589E-32,1.,0.));
#291=DIRECTION('ref_axis',(0.,0.,1.));
#292=DIRECTION('center_axis',(-1.3203392269589E-32,1.,0.));
#293=DIRECTION('ref_axis',(1.,1.3203392269589E-32,0.));
#294=DIRECTION('center_axis',(-1.,-1.3203392269589E-32,1.22464679914735E-16));
#295=DIRECTION('ref_axis',(-1.22464679914735E-16,0.,-1.));
#296=DIRECTION('center_axis',(-1.3203392269589E-32,1.,0.));
#297=DIRECTION('ref_axis',(1.,1.3203392269589E-32,0.));
#298=DIRECTION('center_axis',(-1.3203392269589E-32,1.,0.));
#299=DIRECTION('ref_axis',(-1.,0.,0.));
#300=DIRECTION('',(1.3203392269589E-32,-1.,0.));
#301=DIRECTION('center_axis',(-1.3203392269589E-32,1.,0.));
#302=DIRECTION('ref_axis',(1.,1.3203392269589E-32,0.));
#303=DIRECTION('center_axis',(1.3203392269589E-32,-1.,0.));
#304=DIRECTION('ref_axis',(0.,0.,-1.));
#305=DIRECTION('center_axis',(-1.3203392269589E-32,1.,0.));
#306=DIRECTION('ref_axis',(1.,1.3203392269589E-32,0.));
#307=DIRECTION('center_axis',(-1.3203392269589E-32,1.,0.));
#308=DIRECTION('ref_axis',(-1.,0.,0.));
#309=DIRECTION('center_axis',(-1.3203392269589E-32,1.,0.));
#310=DIRECTION('ref_axis',(1.,1.3203392269589E-32,0.));
#311=DIRECTION('',(-0.25881904510252,-0.965925826289069,3.16961915143176E-17));
#312=DIRECTION('center_axis',(-1.3203392269589E-32,1.,0.));
#313=DIRECTION('ref_axis',(-1.,0.,0.));
#314=DIRECTION('center_axis',(-1.3203392269589E-32,1.,0.));
#315=DIRECTION('ref_axis',(1.,1.3203392269589E-32,0.));
#316=DIRECTION('center_axis',(-1.3203392269589E-32,1.,0.));
#317=DIRECTION('ref_axis',(1.,1.3203392269589E-32,0.));
#318=DIRECTION('',(1.3203392269589E-32,-1.,0.));
#319=DIRECTION('center_axis',(-1.3203392269589E-32,1.,0.));
#320=DIRECTION('ref_axis',(0.,0.,1.));
#321=DIRECTION('center_axis',(-1.,-1.3203392269589E-32,1.22464679914735E-16));
#322=DIRECTION('ref_axis',(-1.22464679914735E-16,0.,-1.));
#323=DIRECTION('center_axis',(-1.3203392269589E-32,1.,0.));
#324=DIRECTION('ref_axis',(1.,1.3203392269589E-32,0.));
#325=DIRECTION('center_axis',(1.3203392269589E-32,-1.,0.));
#326=DIRECTION('ref_axis',(0.,0.,-1.));
#327=DIRECTION('center_axis',(-1.3203392269589E-32,1.,0.));
#328=DIRECTION('ref_axis',(1.,1.3203392269589E-32,0.));
#329=DIRECTION('center_axis',(-1.3203392269589E-32,1.,0.));
#330=DIRECTION('ref_axis',(0.,0.,1.));
#331=DIRECTION('center_axis',(-1.,-1.3203392269589E-32,1.22464679914735E-16));
#332=DIRECTION('ref_axis',(-1.22464679914735E-16,0.,-1.));
#333=CARTESIAN_POINT('',(0.,0.,0.));
#334=CARTESIAN_POINT('Origin',(-3.2348311060493E-30,245.,0.));
#335=CARTESIAN_POINT('',(214.,295.,-2.62074415017534E-14));
#336=CARTESIAN_POINT('Origin',(-3.89500071952875E-30,295.,0.));
#337=CARTESIAN_POINT('',(214.,195.,-2.62074415017534E-14));
#338=CARTESIAN_POINT('',(214.,245.,-2.62074415017534E-14));
#339=CARTESIAN_POINT('',(-2.62074415017534E-14,195.,-214.));
#340=CARTESIAN_POINT('Origin',(-2.57466149256985E-30,195.,0.));
#341=CARTESIAN_POINT('Origin',(-2.57466149256985E-30,195.,0.));
#342=CARTESIAN_POINT('Origin',(-197.5,295.,0.));
#343=CARTESIAN_POINT('',(197.5,295.,-2.41867742831602E-14));
#344=CARTESIAN_POINT('Origin',(-3.89500071952875E-30,295.,0.));
#345=CARTESIAN_POINT('Origin',(-3.24803449831889E-30,246.,0.));
#346=CARTESIAN_POINT('',(197.5,197.,-2.41867742831602E-14));
#347=CARTESIAN_POINT('',(197.5,246.,-2.41867742831602E-14));
#348=CARTESIAN_POINT('',(-2.41867742831602E-14,197.,-197.5));
#349=CARTESIAN_POINT('Origin',(-2.60106827710903E-30,197.,0.));
#350=CARTESIAN_POINT('Origin',(-2.60106827710903E-30,197.,0.));
#351=CARTESIAN_POINT('Origin',(-2.60106827710903E-30,197.,0.));
#352=CARTESIAN_POINT('',(-2.3819380243416E-14,194.,-194.5));
#353=CARTESIAN_POINT('Origin',(-2.3819380243416E-14,197.,-194.5));
#354=CARTESIAN_POINT('Origin',(-2.56145810030026E-30,194.,0.));
#355=CARTESIAN_POINT('Origin',(-161.5,194.,0.));
#356=CARTESIAN_POINT('',(-1.97780458062298E-14,194.,-161.5));
#357=CARTESIAN_POINT('Origin',(-2.56145810030026E-30,194.,0.));
#358=CARTESIAN_POINT('Origin',(-2.35020382398684E-30,178.,0.));
#359=CARTESIAN_POINT('',(-1.7818610927594E-14,178.,-145.5));
#360=CARTESIAN_POINT('',(145.5,178.,-1.7818610927594E-14));
#361=CARTESIAN_POINT('Origin',(-2.35020382398684E-30,178.,0.));
#362=CARTESIAN_POINT('Origin',(-1.97780458062298E-14,178.,-161.5));
#363=CARTESIAN_POINT('Origin',(-2.35020382398684E-30,178.,0.));
#364=CARTESIAN_POINT('Origin',(-1.17510191199342E-30,89.,0.));
#365=CARTESIAN_POINT('',(145.5,-3.5527136788005E-14,-1.7818610927594E-14));
#366=CARTESIAN_POINT('',(145.5,89.,-1.7818610927594E-14));
#367=CARTESIAN_POINT('Origin',(4.37905770101505E-46,-3.5527136788005E-14,
0.));
#368=CARTESIAN_POINT('Origin',(-154.284609690827,-3.77448708712584E-14,
0.));
#369=CARTESIAN_POINT('',(154.284609690827,-3.88578058618805E-14,-1.88944153415569E-14));
#370=CARTESIAN_POINT('Origin',(4.37905770101505E-46,-3.5527136788005E-14,
0.));
#371=CARTESIAN_POINT('Origin',(-7.92203536175335E-32,5.99999999999998,0.));
#372=CARTESIAN_POINT('',(157.5,12.,-1.92881870865708E-14));
#373=CARTESIAN_POINT('Origin',(-1.58440707235067E-31,12.,0.));
#374=CARTESIAN_POINT('',(155.892304845413,5.99999999999998,-1.90913012140639E-14));
#375=CARTESIAN_POINT('Origin',(-1.24772056947616E-30,94.5,0.));
#376=CARTESIAN_POINT('',(-1.92881870865708E-14,177.,-157.5));
#377=CARTESIAN_POINT('',(157.5,177.,-1.92881870865708E-14));
#378=CARTESIAN_POINT('Origin',(-2.33700043171725E-30,177.,0.));
#379=CARTESIAN_POINT('Origin',(-2.33700043171725E-30,177.,0.));
#380=CARTESIAN_POINT('',(157.5,94.5,-1.92881870865708E-14));
#381=CARTESIAN_POINT('Origin',(-2.33700043171725E-30,177.,0.));
#382=CARTESIAN_POINT('',(-1.9655581126315E-14,180.,-160.5));
#383=CARTESIAN_POINT('Origin',(-1.9655581126315E-14,177.,-160.5));
#384=CARTESIAN_POINT('Origin',(-2.37661060852602E-30,180.,0.));
#385=CARTESIAN_POINT('Origin',(-199.,180.,0.));
#386=CARTESIAN_POINT('',(-2.43704713030323E-14,180.,-199.));
#387=CARTESIAN_POINT('Origin',(-2.37661060852602E-30,180.,0.));
#388=CARTESIAN_POINT('Origin',(-2.57466149256985E-30,195.,0.));
#389=CARTESIAN_POINT('Origin',(-2.43704713030323E-14,195.,-199.));
#390=UNCERTAINTY_MEASURE_WITH_UNIT(LENGTH_MEASURE(0.01),#394,
'DISTANCE_ACCURACY_VALUE',
'Maximum model space distance between geometric entities at asserted c
onnectivities');
#391=UNCERTAINTY_MEASURE_WITH_UNIT(LENGTH_MEASURE(0.01),#394,
'DISTANCE_ACCURACY_VALUE',
'Maximum model space distance between geometric entities at asserted c
onnectivities');
#392=(
GEOMETRIC_REPRESENTATION_CONTEXT(3)
GLOBAL_UNCERTAINTY_ASSIGNED_CONTEXT((#390))
GLOBAL_UNIT_ASSIGNED_CONTEXT((#394,#396,#397))
REPRESENTATION_CONTEXT('','3D')
);
#393=(
GEOMETRIC_REPRESENTATION_CONTEXT(3)
GLOBAL_UNCERTAINTY_ASSIGNED_CONTEXT((#391))
GLOBAL_UNIT_ASSIGNED_CONTEXT((#394,#396,#397))
REPRESENTATION_CONTEXT('','3D')
);
#394=(
LENGTH_UNIT()
NAMED_UNIT(*)
SI_UNIT(.MILLI.,.METRE.)
);
#395=(
LENGTH_UNIT()
NAMED_UNIT(*)
SI_UNIT(.CENTI.,.METRE.)
);
#396=(
NAMED_UNIT(*)
PLANE_ANGLE_UNIT()
SI_UNIT($,.RADIAN.)
);
#397=(
NAMED_UNIT(*)
SI_UNIT($,.STERADIAN.)
SOLID_ANGLE_UNIT()
);
#398=SHAPE_DEFINITION_REPRESENTATION(#399,#400);
#399=PRODUCT_DEFINITION_SHAPE('',$,#402);
#400=SHAPE_REPRESENTATION('',(#223),#392);
#401=PRODUCT_DEFINITION_CONTEXT('part definition',#406,'design');
#402=PRODUCT_DEFINITION('225830z','225830z',#403,#401);
#403=PRODUCT_DEFINITION_FORMATION('',$,#408);
#404=PRODUCT_RELATED_PRODUCT_CATEGORY('225830z','225830z',(#408));
#405=APPLICATION_PROTOCOL_DEFINITION('international standard',
'automotive_design',2009,#406);
#406=APPLICATION_CONTEXT(
'Core Data for Automotive Mechanical Design Process');
#407=PRODUCT_CONTEXT('part definition',#406,'mechanical');
#408=PRODUCT('225830z','225830z',$,(#407));
#409=PRESENTATION_STYLE_ASSIGNMENT((#410));
#410=SURFACE_STYLE_USAGE(.BOTH.,#413);
#411=SURFACE_STYLE_RENDERING_WITH_PROPERTIES($,#417,(#412));
#412=SURFACE_STYLE_TRANSPARENT(0.);
#413=SURFACE_SIDE_STYLE('',(#414,#411));
#414=SURFACE_STYLE_FILL_AREA(#415);
#415=FILL_AREA_STYLE('',(#416));
#416=FILL_AREA_STYLE_COLOUR('',#417);
#417=COLOUR_RGB('',0.749019607843137,0.749019607843137,0.749019607843137);
ENDSEC;
END-ISO-10303-21;
